Inspecteur Gadget

Inspecteur Gadget.

Par : http://lecoinguitaredeloulou.e-monsite.com.

Vous pouvez telecharger la tablature au format .txt en cliquant sur le lien ci-dessous :

http://www.mediafire.com/file/q3idws8jsqaqgr2/inspecteurgadget.txt

e|----------------------------------------------|
B|----------------------------------------------|
G|----------------------------------------2-1---|
D|--------0-2----1----0-----------0-2-----------|
A|-0-2-3------3----2---3-0-2-3------------------|
E|----------------------------------------------|

e|----------------------------------------|
B|----------------------------------------|
G|------------------------2-1-0--------2|
D|-------0-2----1----0---------4-3--2-2|
A|-0-2-3-----3----2----3---------------|
E|---------------------------------------|