Jeux interdits (Romanza), Version débutant

Jeux interdits (Romanza)

Par : http://lecoinguitaredeloulou.e-monsite.com.

Vous pouvez telecharger la tablature au format .txt en cliquant sur le lien ci-dessous :

http://www.mediafire.com/file/2ijcx1tmqcs2o9i/jeuxinterditsdebutant.txt

 

E--7-----7-----7-----7-----5-----3-----3-----2-----0-----0-----3-----7-----12-----12-----12-----12---
B----0-----0-----0-----0-----0-----0-----0-----0-----0-----0-----0-----0------0------0------0------0--
G------0-----0-----0-----0-----0-----0-----0-----0-----0-----0-----0-----0------0------0------0------0-
D------------------------------------------------------------------------------------------------------------
A------------------------------------------------------------------------------------------------------------
E---0-----------------0-------------0-----------0-----------0------------------0----------------------0---

E--10-----8------7-----5-----5-----7-----8-----7-----8-------7--/---12-----8-----7-----7-----5-----3------
B------0-----0-------0-----0-----0-----0-----0-----0-----0------0-------0-----0-----0-----0-----0-----0-----
G-------0-----0---------0-----0-----0-----0-----0-----0-----0-------0------0-----0-----0-----0-----0-----0--
D------------------------------------------------------------------------------------------------------------------
A------------------------------------------------------------------------------------------------------------------
E---0---------------------0-----------0---------------------------0--------------------0------------------0-----

E--2-----2------2-----2-----3-----2-----0-----0-----0-----0----------------------------------
B----0-----0------0-----0-----0-----0-----0-----0-----0-----0---------------------------------
G------0----0-------0-----0-----0-----0-----0-----0-----0-----0--------------------------------
D--------------------------------------------------------------------------------------------------
A-----------------------------------------------------------------------------------------------
E---0-------------------0--------------------0----------------0-------------------------------