Thème de Harry Potter (Débutant)

Thème de Harry Potter (Débutant)

Par http://lecoinguitaredeloulou.e-monsite.com

Vous trouverez la tablature au format .txt en cliquant sur le lien ci-dessous :

 

e-------|0---3-2-|0-----7-|5-------|2-------|0---3-2-|------1-|--------|
B-----0-|--------|--------|--------|--------|--------|3-------|0-------|
G-------|--------|--------|--------|--------|--------|--------|--------|
D-------|--------|--------|--------|--------|--------|--------|--------|
A-------|--------|--------|--------|--------|--------|--------|--------|
E-------|0--------|--------|--------|--------|-0-------|--------|--------|


e-------|0---3-2-|0-----7-|10----9-|8-----5-|8---7-6-|------3-|0-------|
B-----0-|--------|--------|--------|--------|--------|0-------|--------|
G-------|--------|--------|--------|--------|--------|--------|--------|
D-------|--------|--------|--------|--------|--------|--------|--------|
A-------|--------|--------|--------|--------|--------|--------|--------|
E-------|0--------|--------|0--------|--------|0--------|--------|0--------|