Dream of mirrors de Iron Maiden (Intro)

Dream of Mirrors de Iron Maiden.

Par http://lecoinguitaredeloulou.e-monsite.com

Vous trouverez la tablature au format .txt en cliquant sur le lien ci-dessous :

 

-|-------------------------|-----------------------|-----------------------|--
-|-------------------------|-----------------------|-----------------------|--
-|----------4-5-4----------|--------4-5-4-----7----|--------4-5-4----------|--
-|-7--7------------5-------|-7--7----------5-------|-7--7----------5-------|--
-|-7--7---------------5----|-7--7------------------|-7--7-------------5----|--
-|-5--5--------------------|-5--5------------------|-5--5------------------|--
                                                            

-|-------------------------||----------------------------|------------------|-
-|-------------------------||--------------------5h6p5---|-5v---------------|-
-|-------------------5--4-0||--------------------------7-|------------------|-     X2
-|-------------3--2-------0||----------------------------|------------------|-
-|-3--2--3--2--------------||----------------------------|------------------|-
-|-------------------------||----------------------------|------------------|-