Highway to Hell de AC/DC

Highway to hell de AC/DC

Par http://lecoinguitaredeloulou.e-monsite.com

Vous trouverez la tablature au format .txt en cliquant sur le lien ci-dessous :

 


INTRO et COUPLETS :

                  A                        D/F#  G                  D/F#  G
E|------------------------|------------------------|------------------------|
B|----------------2--2--2-|----------------3--3--3-|----------------3--3--3-|
G|----------------2--2--2-|----------------2--2--0-|----------------2--2--0-|
D|----------------2--2--2-|----------------0--0--0-|----------------0--0--0-|
A|----------------0--0--0-|------------------------|------------------------|
E|------------------------|----------------2--2--3-|----------------2--2--3-|

      D/F#  G     D/F#  A
E|------------------------||*-----------------------|------------------------|
B|----3--3--3-----------2-||-2--------------2--2--2-|----------------3--3--3-|
G|----2--2--0-----2-----2-||-2--------------2--2--2-|----------------2--2--0-|
D|----0--0--0-----0-----2-||-2--------------2--2--2-|----------------0--0--0-|
A|----------------------0-||-0--------------0--0--0-|------------------------|
E|----2--2--3-----2-------||*-----------------------|----------------2--2--3-|


E|------------------------|--------------------------||
B|----------------3--3--3-|----3--3--3-----------2-||
G|----------------2--2--0-|----2--2--0-----2-----2-||
D|----------------0--0--0-|----0--0--0-----0-----2-||
A|------------------------|----------------------0---||
E|----------------2--2--3-|----2--2--3-----2--------||


PREREFRAIN :

  
E|---------------------------|---------------------------|
B|---------------------------|---------------------------|
G|---------------------------|---------------------------|
D|-2--2--2--2--2--2--2--2-|-2--2--2--2--2--2--2--2-|
A|-2--2--2--2--2--2--2--2-|-2--2--2--2--2--2--2--2-|
E|-0--0--0--0--0--0--0--0-|-0--0--0--0--0--0--0--0-|


REFRAIN :

   A                    D               G     D
E||*-----------------------|-----------------------*||
B||-2-----------2-----2--3-|----3--3-----3-----3----||
G||-2-----------2-----2--2-|----2--2--0--0-----2----||
D||-2-----------2-----2--0-|----0--0--0--0-----0----|| (x3)
A||-0-----------0-----0----|------------------------||
E||*-----------------------|-------------3---------*||

   A                    D
E|------------------------|------------------------|
B|-2-----------2-----2--3-|------------------------|
G|-2-----------2-----2--2-|------------------------|
D|-2-----------2-----2--0-|------------------------|
A|-0-----------0-----0----|------------------------|
E|------------------------|------------------------|



Living easy, living free
Season ticket on a one-way ride
Asking nothing, leave me be
Taking everything in my stride
Don't need reason, don't need rhyme
Ain't nothing I would rather do
Going down, party time
My friends are gonna be there too

I'm on the highway to hell

No stop signs, speed limit
Nobody's gonna slow me down
Like a wheel, gonna spin it
Nobody's gonna mess me round
Hey Satan, paid my dues
Playing in a rocking band
Hey Momma, look at me
I'm on my way to the promised land

I'm on the highway to hell
(Don't stop me)

And I'm going down, all the way down
I'm on the highway to hell
 

×