Encore une fois de Luke

Encore une fois : Luke

Par http://lecoinguitaredeloulou.e-monsite.com.

Pour telecharger la tablature au format .txt, cliquez sur le lien ci-dessou :

http://www.mediafire.com/file/jaasjpt9r3e9yb5/Encoreunefois.txt

Capodastre : 4ème position


Intro et couplet

|------------3---------3---------------------------------------------------------0----------|
|-----3---------3---------3---------5----------3------3----------------3-------------0------|
|-----------------------------------------------------------0-------------------------------|
|--------------------------------------------------------2----------0-----0--------------2--|
|--3-----3---------3---------3---5-----5-----------2-------------0-----------0-----------3--|
|-------------------------------------------0-----------------------------------------------|

Refrain

|-------------0---------2--2--2---3p2--2--0-----|
|----------------0------3--3--3---3----3--0-----|
|-------------------0---2--2--2---0----0--0-----|
|---2--2--2-----------------------------------2--|
|---2--2--2-----------------------------------3--|
|---0--0--0-----------------------------------0--|

Pont

|-----------------------------------------------------------------|
|-----------------------------------------------------------------|
|-----------------------------------------------------------------|
|--2--2--2--2--2---4--4--4--4--4---5--5--5--5--5---4--4--4--4--4--|
|--3--3--3--3--3---3--3--3--3--3---3--3--3--3--3---3--3--3--3--3--|
|-----------------------------------------------------------------|

Riff de fin

|--7-7----7----5-5---5----3-3----3----2-2--------|
|-------8---8------7---7-------5---5-------3--5--|
|------------------------------------------------|
|------------------------------------------------|
|------------------------------------------------|
|------------------------------------------------|

 

×