Et dans 150 ans de Raphael

Et dans 150 ans de Raphael.

Par http://lecoinguitaredeloulou.e-monsite.com.

Vous pouvez telecharger la tablature au format .txt en cliquant sur le lien ci-dessou :

http://www.mediafire.com/?2d7mxpr6atzfmkn

Capo : case 1

INTRO
   C
E||--------3-----------|
B||--1--------1--------|
G||--------0-----0-----|  X4
D||-----2-----------2--|
A||--3-----------------|
E||--------------------|

Couplet + Refrain

     C                  F                    Dm
E||3--------3-------|1----------1------|1--------1---------|
B||---1--------1----|---1----------1---|---3----------3----|
G||------0--------0-|--------2--------2|------2----------2-|
D||-----------------|-------------------|-0------------------|
A||3----------------|-------------------|-------------------|
E||-----------------|1------------------|-------------------|
      G                                        C
E||3---------3-------|              |--0--|
B||---0--------0-----|              |--1--|
G||------0--------0--|  X2 puis |--0--|
D||------------------|               |--2--|
A||------------------|               |--3--|
E||3-----------------|               |--0--|

 

×