Hallelujah de Jeff Buckley

Hallelujah de Jeff Buckley.

Par http://lecoinguitaredeloulou.e-monsite.com

Intro :

E --------0---0-----0----------------------------------0---0------------------0-----
B -0--3------------------3----0----0---------0----3-------------------0-----------3-
G --------3---3----------------------------------------3---3-------------3----------
D ----------------------------2----2---------------------------------------2----2---
A ----------------------------------------------------------------2-----------------
E --------------------------------------0-------------------------------------------

-----------------------------------------------------------------------------------
-0---------------0--0--------------------------------------------------------------
----0---------0--0--0--------0-------0--------0------0---------0--------0--------0-
-2-----2---2--------------2-------2-------2-------2---------2--------2--------2----
-----------------------1-------1-------1--------1--------2--------2--------2-------
---------0-------------------------------------------------------------------------


-------------------------------------------------------------------------0-0---0-0-
-----------------------0-0-----------------------------------------1-1---1-1---1-1-
--------3-3----3-3-----3-3-----0-0--------------0-0----0-0---0-0---0-0---0-0---0-0-
---0----2-2----2-2-----2-2-----2-1--------------1-1----1-1---2-2---2-2-------------
-2---1------1-------1-------2-------2--3--2--0-------0-----------------------------
-----------------------------------------------------------3-----3------3----3-----

                    . . fin intro   tem:70                    
---0-0---0-0---2---2-2-------------------------------------------------------------
---1-1---1-1---3---3-3-----------------3---------------3--------------------3------
---0-0---0-0-------2-2-----------------0---------------0--------------------0------
-------------------0-0--------------0-----0---------0-----0-------------0------0---
------------------(0-0)----------2----------------2------------------2-------------
-3-----3-----3-------------2--0-------------2--3--------------2--0-----------------

                                      #1                       well i heard there was
------------3----------------3------------------3--------------3--------------3----
------------3----------------3------------------3--------------3--------------3----
---------------0----------------0-----------------0--------------0---------------0-
----------0----------------0------------------0--------------0-------------0-------
-------2----------------2------------------2--------------2-------------2----------
-2--3------------2--0---------------2--3------------2--0----------2--3-------------

a secret chord that david played and it pleased the lord but you don't really care
------------3------------------3---------------3-------------------0------0-------
------------3------------------3---------------3-------------------1---------1----
---------------0-----------------0----------------0------------0------0---------0-
----------0----------------0----------------0--------------2----------------------
-------2----------------2----------------2-----------2--3-------------------------
--2--0------------2--3-------------2--0-------------------------------------------

for music    do you?                h.            Well it goes like this the fourth,
--2--------3---------3----------0-2-------------2------------3-----------3---------
-----3--------3----------3------------3-------------3------------3-----------3-----
--------2--------0----------0--------------2------------0------------0----------0--
---------------------0----------0---------------0----------------------------------
-----------2-------------------------------------------------2-----------2---------
-----------------------------------------------------------------------------------

  the fith, the minor fall   and the major  lift    the  baffled  king  composing
---------2------------------0------------------0----------2--------2--------2-----
---1--------3-----------0-------0-----------1------1---------3--------3-------0---
------0--------2----0---------------0----0-----0------0---------2--------2--------
---------0------------------------------------------------0--------0--------1---2-
-3------------------------------------3-------------------------------------------
------------------0---------------------------------------------------------------

   hal-le-lu-jah                   hal- le - lu - jah           hal- le - lu- jah                      
-2-------3---------3---------3-2--------------0--------------0---------------------
----0--------0--------0------0-3-----1----------------------------3--0-------0-----
------2---------0--------0---0-2--------0-------0----------0---0--------0------0---
-1-------2---------2-----------------------2-------2-----2-----------------2-----2-
-------------------------------------3----------------3----------------------------
---------------------------------------------------------------------0-------------

         hal- le - lu- jah           hal - le - lu  -  -   -   -  -    -   -    
---------------------------------------------------------------3--------------2-3-
---------0-----3---1--------1----------------1------0---3---------------------3---
----------------------0--------0----------0-----0----------0----------------2-----
------2-----2------------2-------2-----2---------------------0------------0-------
----2--------------3--------3-------3--------3----------2---------3-2--0----------
-0--------------------------------------------------------------------------------

  -jah                                                                         #2
------------3-------------------3----------------------3-------------------3-----
------------3-------------------3----------------------3-------------------3-----
---------------0--------------------0----------------------0------------------0--
--------0--------------------0----------------------0-------------------0--------
-----2--------------------2---------------------2--------------------2-----------
--3----------------2---0-----------------2---3-----------------2--0--------------
---------------------------------------------------------------------------------

   Voila donc la première partie qui se situe entre #1 et #2. Celle ci est à répété deux fois
entièrement(pour accompagner le chant couplet 2 et 3) et enfin une troisieme fois
(pour le couplet 4)sans jouer le refrain  mélodique ci dessus pour ainsi enchaîner
directement sur le pont :


----------3---3--------------------------2---2----------0----0---------------0-
----------3---3--------3-----------------3---3----------3----3----------1----1-
------0-------------0--0--------------0--------------0------------------0------
----2-------2-----2------------------------4---------------4----------2--------
-3--------------3------3--2--0------2--------------2------------2-3-------3---
---------------------------------0--------------0------------------------------


-------------------------3-----------------2----------------3----------------3----
-----------1----1--------3-----------------3------3---------3----------------3----
-----------0----0-----------------0-------------2--------------0----------------0-
--------2-------------0--------0--------0----------------0-----------------0------
-2-3--------3-----2--------2--------0--------0--------2----------------2---------
-----------------------------------------------------3------------2--0------------


-------------3----------------3---------------------0--------3------5----5-7---5-
-------------3----------------3-----0-----1---------1--------1--------------------
---------------------------------0----------------------------------2----2-4---2-
----------0-----0----------0------------------------------------------------------
-------2-----------------2----------------3---------------------------------------
-2--3--------------2--0-----------------------------------------------------------


--3-------3----------3----------------5--------7-------7-----8--8-----8----------
-----3-------3--------------5-7---------------------8------------------8--------
--------4-------4--5--5----------7-----7--9----9-------9--------9-------9-11-
---------------------------------------------------------------------------------
---------------------------------------------------------------------------------
---------------------------------------------------------------------------------


-10----------10-----------10----------------------7---12----8----------10--------
-----10---------------10----------10-----------8----------------8------10----10--
---------11------11-----------11------11--9-------------------------------------
----------------------------------------------------------------10-----------12--
---------------------------------------------------------------------------------
---------------------------------------------------------------------------------

5.Maybe  there's -  a  god  above ,        but all  I've ever   learned from
-----------3-----------------------0-----------------3--------------------------
--3-------------3----------------------0----------3-----3------0---------0------
-----0--------------0---0------------------0---------------0------0--------0----
--------0-----------------------2---------------0---------------------2---------
-----------2----------------2------2-----------------2------------------------2-
--3---------------------0---------------------3----------------0---------0------

   love was how to shoot somebody who outdraw you               h.
---------------------3---------2----------3-------------------0-2---2----2------
-1-----------1----------1----------3----------3------3---------------------3----
----0-----0-----0----------0----------2-----------0-----0-----0-2-----2-------2-
-------2-----------------------0---------------------------0--------------------
-3----------------------------------------2----------2--------------------------
--------------------------------------------------------------------------------

             h.and its not a cry that you hear at night,its not somebody whos seen
-2---------2-3----------------3-3---------------2--------0-----0-----------------0-
----3------3---------0-0------0-0--------1------3--------0--------0------1---------
-------2-------------0-0------0-0-----0-------------2-------0--------0------0------
-0-------0----------------------------------0--------------------------------------
-----------------------------------3-------------------------------------3----2--3-
------------------3--------3----------------------------0------0-------------------

   the light its a cold and   its a  broken  hal - le - lu - - - - - - jah  hal-le-
----------2-----------2---------2----------2---------3--------3--------3------3-2-
--1--------------3------------------0---------0---------0--------0-------0----3---
-----0--------2-----------2------------2----------2--------0--------0------0--2---
----------------------0------0--1------1---1--1---1--2--------2--------2----------
-----2----0------0----------------------------------------------------------------
----------------------------------------------------------------------------------

- lu - -  - jah,              hal- le - - lu - - - jah          hal - - le - - lu 
------------------------------------------------------0-------------------------
-1--------1--------1--------1-----0---0-------0----------0------------0--1------
----0--------0--------0--------0---------0-------0----------0--0------------0---
-------2--------2--------2------------------2-------2--------------2----------2-
-3-----------------3--------3----------------------------------2---------3------
--------------------------------------0---------------0-------------------------

- - jah,                    hal - le -  lu  -  -  -  -  - jah         hal-le - lu -  
--0----------------------0------------3---------3---------------------2------------
-----1-----------------------1-----------3------3----3----------------3----1-------
--------0-----------0-----------0-----------0---0-------0----------2----------0----
----------------2-----------------------------------------------0----------------2-
------------3-------------------------2---------------------0--------------3-------
-----------------------------------------------------------------------------------

  -  jah,                  hal -  le - lu -  -  -  jah,        hal - le - lu -   jah
-3---------2--------0--------------------------------------------------------------
-----1--------1--------1---------------3--------1-------0----------1---------1-----
--------0--------0--------0--------0------0--------0--------0----------0-------0---
--------------------------------2------------2--------2---------2---------2------2-
-------------------------------------------------------------------3---------3-----
-----------------------------0-----------------------------------------------------

           hal - le - lu - -  -   -   -  -       hal - le - lu  -   jah .     Hal-
---------------------------3---------2--------2-----------------0-------------0----
---------------------------3-------------3-------3-----1-----------1-------------1-
--0------2-----2-----0---------0------------2-------0------0---------0------0------
----2-------0-----0-----0---------0--0------------------------2-----------2--------
------3------------------------------------------------3----------------3------3---
-----------------------------------------------------------------------------------

- le - lu -  - jah.               Hal -  -  le - lu -  - jah,           Vib.hal-le   
----------------3-----------------0----------0----------0-------0---------0-------
----------------0--------------------------------1---------1-------1------1-------
--0----------0-----0-----------0------0-------------0--------0--------0---2-------
----------2-----------2-----2------------0--------------------------------0-------
------2---------------------------2----------3----------------------------3-------
-------------------------0--------------------------------------------------------


- lu -  -  -   -   -   -    -   -    -    -    -  -   -    -   -   -    -   -   -      
------------3-----------------------------------------2---------------------3------
------------3-----------------------------------------3---------------------3------
-----0---0--0-----------------------------------------2---------------------0------
-------0----------------------------------------------0----------------------------
-2--------------------------------------------------------------------------3------
-----------------------------------------------------------------------------------

-  -  -   -   -   -   -  -    -    -    -    -    -   -     -    -    -    -    -         
--3---3--------0-------------0-0-0-0------------3----------------------------------
--3---3--------0-------------0-0-0-0------------1----------------------------------
---------------0-------------0-0-0-0------------0----------------------------------
---------------2-------------2-4-5-2------------2----------------------------------
--2---0--------2--------------------------------3----------------------------------
---------------0-------------------------------------------------------------------

- -  - jah.         hal-le-lu - -  -    -  -  -   -  -   -   -  jah.
--0--------------0--------0--------------2------------------------3----------------
--0--------------0--------1--------------3------------------------3----------------
--0----------0------------0--------------2------------------------0----------------
--2-------2---------------2--------------0------------------------0----------------
--2-----------------------3--------------------------------------------------------
--0--------------------------------------------------------------------------------


  Couplet 2 :                                         

   Well your faith was strong but you needed proof    
You saw her bathing on the roof                    
Her beauty and the moonlight overthrew you         
She tied you to her kitchen chair                  
She broke your throne and she cut you hair        
And from your lips she drew the hallelujah         
                                                       
Couplet 3 :

Baby I've been here before
I've seen this room and I've walked this floor
I used to live alone before i knew you
I've seen your flag on the marble arch
But love is not a victory march
It's a cold and it's a broken hallelujah


  Couplet 4 :

   Well there was a time when you let me know
What's really going on below
But now you never show that to me do you
But remember when I moved in you
And the holy dove was mooving too
And every breath we drew was hallelujah