Les portes du pénitencier de Johnny Hallyday

Les portes du pénitencier (House of the rising sun de The Animals), de Johnny Hallyday.

Par http://lecoinguitaredeloulou.e-monsite.com.

Vous trouverez la tablature au format .txt en cliquant sur le lien ci-dessous :

http://www.mediafire.com/?zuy5zjz5q7pgi7g

Lam (Am)                        Do (C)                          Re (D)                       Fa (F)

|--------------0-----------|--------------0-----------|--------------2-----------|--------------0-----------|

|-----------1-----1--------|-----------1-----1--------|-----------3-----3--------|-----------1-----1--------|

|--------2-----------2-----|--------0-----------0-----|--------2-----------2-----|--------2-----------2-----|

|--------------------------|--------------------------|-----0--------------------|-----3--------------------|

|-----0--------------------|-----3--------------------|--------------------------|--------------------------|

|--------------------------|--------------------------|--------------------------|--------------------------|

Lam (Am)                         Do (C)                        Mi (E)                            Mi (E)

|--------------0-----------|--------------0-----------|--------------0-----------|--------------0-----------|

|-----------1-----1--------|-----------1-----1--------|-----------0-----0--------|-----------0-----0--------|

|--------2-----------2-----|--------0-----------0-----|--------1-----------1-----|--------1-----------1-----|

|--------------------------|--------------------------|--------------------------|--------------------------|

|-----0--------------------|-----3--------------------|--------------------------|--------------------------|

|--------------------------|--------------------------|-----0--------------------|-----0--------------------|

 

Lam (Am)                        Do (C)                             Re (D)                        Fa (F)

|--------------0-----------|--------------0-----------|--------------2-----------|--------------0-----------|

|-----------1-----1--------|-----------1-----1--------|-----------3-----3--------|-----------1-----1--------|

|--------2-----------2-----|--------0-----------0-----|--------2-----------2-----|--------2-----------2-----|

|--------------------------|--------------------------|-----0--------------------|-----3--------------------|

|-----0--------------------|-----3--------------------|--------------------------|--------------------------|

|--------------------------|--------------------------|--------------------------|--------------------------|

Lam (Am)                         Mi (E)                          Lam (Am)                     Mi (E)

|--------------0-----------|--------------0-----------|--------------0-----------|--------------0-----------|

|-----------1-----1--------|-----------0-----0--------|-----------1-----1--------|-----------0-----0--------|

|--------2-----------2-----|--------1-----------1-----|--------2-----------2-----|--------1-----------1-----|

|--------------------------|--------------------------|--------------------------|--------------------------|

|-----0--------------------|--------------------------|-----0--------------------|--------------------------|

|--------------------------|-----0--------------------|--------------------------|-----0--------------------|