Time of your life de Green Day


Time Of your life (Good Riddance) : Green Day

Par http://lecoinguitaredeloulou.e-monsite.com.

Pour telecharger la tablature, cliquez sur le lien ci-dessou :

http://www.mediafire.com/file/mpdfgv679etvdr7/Timeofyourlife.txt

Intro

G              G             Cadd9          D              (Bis)
--------------|-------------|--------------|--------------|
-----3--------|----3--------|-----3--------|-----3--------|
---0----0---0-|--0----0---0-|---0----0---0-|---2----2---2-|
----------0---|---------0---|----------2---|-0--------0---|
--------------|-------------|-3------------|--------------|
-3------------|3------------|--------------|--------------|

Couplet :

G              G             Cadd9          D              (Bis)
--------------|-------------|--------------|--------------|
-----3--------|----3--------|-----3--------|-----3--------|
---0----0---0-|--0----0---0-|---0----0---0-|---2----2---2-|
----------0---|---------0---|----------2---|-0--------0---|
--------------|-------------|-3------------|--------------|
-3------------|3------------|--------------|--------------|


Em             D             C              G              (Bis)
--------------|-------------|--------------|--------------|
-----0--------|----3--------|-----1--------|-----3--------|
---0----0---0-|--2----2---2-|---0----0---0-|---0----0---0-|
----------2---|0--------0---|----------2---|----------0---|
--------------|-------------|-3------------|--------------|
-0------------|-------------|--------------|-3------------|

Refrain

Em             G              (Bis)
--------------|--------------|
-----0--------|-----3--------|
---0----0---0-|---0----0---0-|
----------2---|----------0---|
--------------|--------------|
-0------------|-3------------|

Em             D            
--------------|--------------|
-----0--------|-----3--------|
---0----0---0-|---2----2---2-|
----------2---|-0--------0---|
--------------|--------------|
-0------------|--------------|