Zoé de Luke

Zoé de Luke.

Par http://lecoinguitaredeloulou.e-monsite.com

Vous trouverez la tablature au format .txt en cliquant sur le lien ci-dessous :

 

Intro :


  Em                C                    Em                C                 
--------------------------------------|--------------------------------------|
--------------------------------------|--------------------------------------|
-----0--0-----0--0-----0--0-----0-----|-----0--0-----0--0-----0--0-----0-----|
-----2--2-----2--2-----2--2-----2-----|-----2--2-----2--2-----2--2-----2-----|
--------------------3--------2--------|--------------------3--------2--------|
--0--------0-----------------------3--|--0--------0-----------------------3--|


  Em                C                    Em                                  
--------------------------------------|--------------------------------------|
--------------------------------------|--------------------------------------|
-----0--0-----0--0-----0--0-----0-----|-----0--0-----0--0-----0--0-----0--0--|
-----2--2-----2--2-----2--2-----2-----|-----2--2-----2--2-----2--2-----2--2--|
--------------------3--------2--------|--------------------------------------|
--0--------0-----------------------3--|--0--------0--------0--------0--------|






              Ne te blesse    que d'air pur                                  
  Em                                     C                                   
--------------------------------------|--------------------------------------|
--------------------------------------|--------------------------------------|
-----0--0-----0--0-----0--0-----0--0--|-----0--0-----0--0-----0--0-----0-----|
-----2--2-----2--2-----2--2-----2--2--|-----2--2-----2--2-----2--2-----2-----|
--------------------------------------|--3--------3--------3--------3-----3--|
--0--------0--------0--------0--------|--------------------------------------|




             couvre-toi           d'étincelles                               
  G                 Bm                   Em                                  
--------------------------------------|--------------------------------------|
--------------------------------------|--------------------------------------|
-----0--0-----0--0-----4--4-----4--4--|-----0--0-----0--0-----0--0-----0--0--|
-----0--0-----0--0-----4--4-----4--4--|-----2--2-----2--2-----2--2-----2--2--|
--------------------2--------2--------|--------------------------------------|
--3--------3--------------------------|--0--------0--------0--------0--------|




Zoé,             trace donc le trait qui rassure                             
  Am                                     Em                                  
--------------------------------------|--------------------------------------|
--------------------------------------|--------------------------------------|
-----2--2-----2--2-----2--2-----2--2--|-----0--0-----0--0-----0--0-----0--0--|
-----2--2-----2--2-----2--2-----2--2--|-----2--2-----2--2-----2--2-----2--2--|
--0--------0--------0--------0--------|--------------------------------------|
--------------------------------------|--0--------0--------0--------0--------|




               et que ta ligne   soit belle                                  
  G                 C#                   Bm       Bm/A     Bm/G     Bm/F#    
--------------------------------------|--------------------------------------|
--------------------------------------|--------------------------------------|
-----0--0-----0--0-----6--6-----6--6--|-----4--4-----4--4-----4--4-----4--4--|
-----0--0-----0--0-----6--6-----6--6--|-----4--4-----4--4-----4--4-----4--4--|
--------------------4--------4--------|--2--------0--------------------------|
--3--------3--------------------------|--------------------3--------2--------|




Zoé,          tes amours                       sont des légendes             
  C                 G                    D                 Em                
--------------------------------------|--------------------------------------|
--------------------------------------|-----3--3-----3--3--------------------|
-----0--0-----0--0-----0--0-----0--0--|-----2--2-----2--2-----0--0-----0--0--|
-----2--2-----2--2-----0--0-----0--0--|--0--------0-----------2--2-----2--2--|
--3--------3--------------------------|--------------------------------------|
--------------------3--------3--------|--------------------0--------0--------|




   
         que désapprouve           ton ange, ton ange                        
  C                 G                    Bm       Bm/A     Bm/G     Bm/F#    
--------------------------------------|--------------------------------------|
--------------------------------------|--------------------------------------|
-----0--0-----0--0-----0--0-----0--0--|-----4--4-----4--4-----4--4-----4--4--|
-----2--2-----2--2-----0--0-----0--0--|-----4--4-----4--4-----4--4-----4--4--|
--3--------3--------------------------|--2--------0--------------------------|
--------------------3--------3--------|--------------------3--------2--------|






Em C
n'étreins donc qu'en morsures
G   Bm Em
pour les seigneurs de la guerre

Am                Em
fait donc suinter leur armure
G C# Bm
qu'ils y voient de l'univers


C
Zoé,
G
tes amours
D Em
sont des légendes
C G
que désapprouve
Bm
ton ange
ton ange



C G
tes amours
D Em
sont des revanches
C G
que désapprouve
Bm
ton ange
ton ange



  Em                                    
-----------------0----------|
--------------0-------------|
-----------0----------------|
--------2-------------------|
-----2----------------------|
--0-------------------------|