Pour un flirt avec la crise de Tryo (intro)

Pour un flirt avec la crise de Tryo (Intro)

Par : http://lecoinguitaredeloulou.e-monsite.com

Vous trouverez la tablature au format .txt en cliquant sur le lien ci-dessous :

 

Intro :
  
e|----------10----------------------|---10/12-10---------------------|
B|-11/12-------12-12-12-10-10--|----------------12-12-12-10-10-|
G|----------------------------------|-----------------------------------|
D|----------------------------------|-----------------------------------|
A|----------------------------------|-----------------------------------|
E|----------------------------------|----------------------------------|

.
e|---------10---------------------|----------------------|-12-10-----------------|
B|-11/12------12-12-12-10-10-|-7-7-5-5-3-3-0-3--|----------12-10-10-10-|
G|--------------------------------|----------------------|-------------------------|
D|--------------------------------|----------------------|-------------------------|
A|--------------------------------|----------------------|-------------------------|
E|--------------------------------|----------------------|-------------------------| 
                                                         

e|-12--10-------------------|-12--10-------------|--------------------------|
B|------------12-10-10-10-|------------12--10--|---------------------------|
G|--------------------------|-----------------------|-11-9------------9-9-9--|
D|--------------------------|-----------------------|--------12-9-12---------|
A|--------------------------|-----------------------|--------------------------|
E|--------------------------|-----------------------|--------------------------|